a b c d e f g h i j k l m n o p q r s t u v w x y z 0-9

Los Pollitos Dicen

Canciones Populares

			
Los pollitos dicen 
|-------------------
|-----5-6-8-8-------
|-5-7---------------
|-------------------
|-------------------
|-------------------

pio pio pio pio

|-5-8-5-8-----------
|---------8-8-------
|-------------------
|-------------------
|-------------------
|-------------------

cuando tienen hambre

|-------------------
|-6-6-6-8-5-5-------
|-------------------
|-------------------
|-------------------
|-------------------

cuando tienen frio

|-------------------
|-------5-----------
|-7-7-7---5-5-------
|-------------------
|-------------------
|-------------------


y aqui esta completa 

|----------------5-8-5-8---------------------------------|
|------5-6-8-8-----------8-8---6-6-6-8-5-5---------5-----|
|--5-7---------------------------------------7-7-7---5-5-|
|--------------------------------------------------------|
|--------------------------------------------------------|
|--------------------------------------------------------|

Fuente: tusacordes.com