a b c d e f g h i j k l m n o p q r s t u v w x y z 0-9

Los Picapiedras

Canciones Populares

			
e|-------3--0-----------------------------------
B|-3-----------3-----3--1--0--0--1--3--------0--
G|----0-----------0--------------------0--2-----
D|----------------------------------------------
A|----------------------------------------------
E|----------------------------------------------

e|-------3--0-----------------------------------
B|-3-----------3-----3--1--0--0--1--3-----------
G|----0-----------0--------------------0--2--0--
D|----------------------------------------------
A|----------------------------------------------
E|----------------------------------------------

e|-4-----5--4--4--2--2--4--2--2------3--2--2--0--0--2--0--
B|----2---------------------------0-----------------------
G|--------------------------------------------------------
D|--------------------------------------------------------
A|--------------------------------------------------------
E|--------------------------------------------------------

e|-------3--0-----------------------------------
B|-3-----------3-----3--1--0--0--1--3-----------
G|----0-----------0--------------------0--2-----
D|----------------------------------------------
A|----------------------------------------------
E|----------------------------------------------

e|-------------------------3--5--3--------------
B|-0--1--3--------0--1--3-----------------------
G|----------0--2--------------------------------
D|----------------------------------------------
A|----------------------------------------------
E|----------------------------------------------

Fuente: tusacordes.com