a b c d e f g h i j k l m n o p q r s t u v w x y z 0-9

Las Mañanitas

Canciones Populares

			

1)--0--0--5--5--4--5--7--4--5--7--9--5--7--9--10--10--10--/
2)-------------------------------------------------------/
3)------------------------------------------------------/


1)--9--7--5--4--7--5--4--7--9--10--7--5--9--7--4--4--5--7--9--/
2)-----------------------------------------------------------/
3)----------------------------------------------------------/


1)--5--9--7--4--4--5--7--9--5--5--10--10--10--10--9--5--4--/
2)--------------------------------------------------------/
3)-------------------------------------------------------/


1)--5--7--9--10--7--5--0--5--4--5--5--4--5--5--5--9--7--5--4--/
2)-----------------------------------------------------------/
3)----------------------------------------------------------/


1)--5--7--7--0--7--6--7--7--6--7--7--9--10--9--9--7--4--5--5--/
2)-----------------------------------------------------------/
3)----------------------------------------------------------/

Fuente: tusacordes.com