a b c d e f g h i j k l m n o p q r s t u v w x y z 0-9

Las Mañanitas

Canciones Populares

			
Que ondas hay les van las mañanitas.
Van para mi mama y a todas las jefas de los que entren y vean 
esta rolita.


1|-------7--7--5--7--8---7--8---10--7--8---10--12--|
2|-------8--8--7--8--10--5--10--12--8--10--12--13--|
3|--7-7--------------------------------------------|
4|-------------------------------------------------|
5|-------------------------------------------------|
6|-------------------------------------------------|

1|--12--12--10--8---7--5--8---7--5--7--8---10--12--8---7--|
2|--13--13--12--10--8--7--10--8--7--8--10--12--13--10--8--|
3|--------------------------------------------------------|
4|--------------------------------------------------------|
5|--------------------------------------------------------|
6|--------------------------------------------------------|

1|--10--8---5-5--7--8---10--7--10--8---5-5--7--8---10--|
2|--12--10--7-7--8--10--12--8--12--10--7-7--8--10--12--|
3|-----------------------------------------------------|
4|-----------------------------------------------------|
5|-----------------------------------------------------|
6|-----------------------------------------------------|

1|--7-7--12--12--14--12--10--7--5--7--8---10--12--8---7--|
2|--8-8--13--13--15--13--12--8--7--8--10--12--13--10--8--|
3|-------------------------------------------------------|
4|-------------------------------------------------------|
5|-------------------------------------------------------|
6|-------------------------------------------------------|

1|----7--5--7-7--5--7-7--7--10--8---7--5--7--8--8---|
2|----8--7--8-8--7--8-8--8--12--10--8--7--8--10-10--|
3|--7-----------------------------------------------|
4|--------------------------------------------------|
5|--------------------------------------------------|
6|--------------------------------------------------|

1|----8---7--8--8---7--8--8---10-12-10-10--8--8---5--7-7--|
2|----10--8--10-10--8--10-10--12-13-12-12--10-10--7--8-8--|
3|--7-----------------------------------------------------|
4|--------------------------------------------------------|
5|--------------------------------------------------------|
6|--------------------------------------------------------|

1|----7--5--7-7--5--7-7--7--10--8---7--5--7--8--8---|
2|----8--7--8-8--7--8-8--8--12--10--8--7--8--10-10--|
3|--7-----------------------------------------------|
4|--------------------------------------------------|
5|--------------------------------------------------|
6|--------------------------------------------------|

1|----8---7--8--8---7--8--8---10-12-10-10--8--8---5--7-7--|
2|----10--8--10-10--8--10-10--12-13-12-12--10-10--7--8-8--|
3|--7-----------------------------------------------------|
4|--------------------------------------------------------|
5|--------------------------------------------------------|
6|--------------------------------------------------------|

1|--7--5--3--5--7--8--8---8---10--12--10--12--10--12--|
2|--8--7--5--7--8--10-10--10--12--13--12--13--12--13--|
3|----------------------------------------------------|
4|----------------------------------------------------|
5|----------------------------------------------------|
6|----------------------------------------------------|

1|--10--8---7--5--7--8---10-10--10--12--10-10--8---5--7--|
2|--12--10--8--7--8--10--12-12--12--13--12-12--10--7--8--|
3|-------------------------------------------------------|
4|-------------------------------------------------------|
5|-------------------------------------------------------|
6|-------------------------------------------------------|



Hay esta la rola entera vatos ojala y les guste y pues ahy se ven luego.
Dudas a mi correo.

Te amo chari.

Fuente original ATAME [www.atame.org]
Colaborador original: Cristopher kiabeth " Dark " [ckba17@msn.com]

Fuente: tusacordes.com