a b c d e f g h i j k l m n o p q r s t u v w x y z 0-9

Las Mañanitas

Canciones Populares

E
A
			

e|--8--6--4--4--2--4--4--2--4--4--8--8--6--8--8--6--8--8-8-8---------------
b|--9--7--5--5--3--5--5--3--5--5--7--9--7--9--9--7--9--9-9-9---------------
g|-------------------------------------------------------------------------
d|-------------------------------------------------------------------------
a|-------------------------------------------------------------------------
e|-------------------------------------------------------------------------

--8--6--4---2--4--6--8--8---8--8--6--4--6--4--2--2-2-2--------------------
--9--7--5---3--5--7--9--9---9--9--7--5--7--5--3--3-3-3--------------------
--------------------------------------------------------------------------
--------------------------------------------------------------------------
--------------------------------------------------------------------------
--------------------------------------------------------------------------

Esta parte es tranquila...

-----0----0---0---0---0---0---0---0---2---2---2---2---2---2----------
-----0----0---0---0---0---0---0---0---0---0---0---0---0---0----------
-----1----1---1---1---1---1---1---1---2---2---2---2---2---2----------
---------------------------------------------------------------------
--------2---------2-------2-------2---2-------2-------2--------------
--0-----------0-------0-------0-----------2-------2-------2----------

              Estas son...        hoy por ser...




Así llevénsela pero nadamás cambien de ritmo cuándo en la parte siguiente de aqui-ahi les va la cancion l
es va la cancion llevensela en ritmo de vals eso qué es de chun-ta-ta chun-ta-ta


E                                        B7
Que linda esta la mañana en que vengo a saludarte 

B7                                  E
venimos todos con gusto y placer a felicitarté

E                                       B7
el dia en que tu naciste nacieron todas las flores

B7                                      E
y en la pilar del bautismo cantaron los riuseñores

E                                             A 
ya viene amaneciendo ya la luz del día nos diioooo

A     E     B7      E                   B7
lee   vaan tarte de mañana mira que ya amaneció

 B7-B7-B7-B7-B7-B7-E    B7-E
-----------------------------
 Está parte de arriba nadamás marquénla con un rasgueo en cada tono 

Fuente original ATAME [www.atame.org]
Colaborador original: Diego Joseph [-]

Fuente: tusacordes.com