a b c d e f g h i j k l m n o p q r s t u v w x y z 0-9

La Vikina Tablatura

Canciones Populares

			
creo que esta muy facil solo tienen que practicar ojala que les guste

e--------------------------------------
b----------1--0--3--1--0---------0-----
g-------0-----------------2--0------2--
d----0---------------------------------
a--------------------------------------
E--------------------------------------

e----------------------------------------------------------------
b----0---------0-------------------------------------------------
g-------2--0------2--0---2--0-----------------------0--2--4--5---
d------------------------------3--2--2--2--4--2--4---------------
a----------------------------------------------------------------
E----------------------------------------------------------------

e----------------------------------
b----------------------------------
g--4--2--0--4--2--0--4--2--0--2----
d----------------------------------
a----------------------------------
E----------------------------------

Fuente: tusacordes.com