a b c d e f g h i j k l m n o p q r s t u v w x y z 0-9

La Rama

Canciones Populares

			
para todos los que les guste ir a cantar la rama...


  ------0-2-3-3
  --3-3--------
  -------------
  -------------
  -------------
  -------------



  -3-3-2-0-3-2
  ------------
  ------------
  ------------
  ------------
  ------------


  -2-2-3-2-2-0
  ------------
  ------------
  ------------
  ------------
  ------------


  -0-0-2-0----
  ---------3--
  ------------
  ------------
  ------------
  ------------


  -----0-2-3-3
  -3-3--------
  ------------
  ------------
  ------------
  ------------


  -3-3-2-0-2--
  ------------
  ------------
  ------------
  ------------
  ------------


  -2-2-3-2-2-0
  ------------
  ------------
  ------------
  ------------
  ------------


  -0-0-2-0---
  ---------3-
  -----------
  -----------
  -----------
  -----------

Fuente: tusacordes.com