a b c d e f g h i j k l m n o p q r s t u v w x y z 0-9

La Primavera - Vivaldi

Canciones Populares

			
|-----4---2--1--2---4s6---|
|--2----------------------|
|-------------------------|   Todo x2.
|-------------------------|
|-------------------------|
|-------------------------|

|----6--4-----6--4--2-4---|   
|--2-------2--------------|
|-------------------------|  Solo 1 vez.
|-------------------------|
|-------------------------|
|-------------------------|
  

S: deslizar a la siguiente nota, slide.

Fuente: tusacordes.com