a b c d e f g h i j k l m n o p q r s t u v w x y z 0-9

La Pantera Rosa

Canciones Populares

			
   1----------------|---------------|--------------|--------------
   2----------------|---------------|--------------|--------------
   3----------------|---------------|--------------|--------------
   4-----0-1-2------|----0-1-2------|----0-1-2-----|-----0-1-2----
   5--4---------2---|--4--------2---|--4--------2--|--4--------2--
   6---------------0|--------------0|-------------0|-------------0

   1/-------------------------------------------------------
   2/-------------------------------------------------------
   3/------------------------------5-4---------5-4--2-0-----  2x
   4/-----0-1-2---4-5----1-2--4-5-------2--5-------------0-2
   5/--4----------------------------------------------------
   6/-----------0------0------------------------------------

   1/-------------------------------------------------------
   2/-------------------------------------------------------
   3/------------------------------5-4---------5-4--2-0-----  
   4/-----0-1-2---4-5----1-2--4-5-------2--5-------------0-2
   5/--4----------------------------------------------------
   6/-----------0------0------------------------------------

   1/-------------------------------
   2/-------------------------------
   3/--2-3--2-3--2-3--2-0-----
   4/----------------------------0-2
   5/-------------------------------
   6/-------------------------------

Fuente: Tusacordes