a b c d e f g h i j k l m n o p q r s t u v w x y z 0-9

La Pantera Rosa

Canciones Populares

			
1|---------------------------------------------------------------
2|---------------------------------------------------------------
3|-----------------------3-2-----2-1--1-0------------------------
4|----------2-3----0-2-3-----0-3-----------3--0-0----------------
5|-2-3-4-5-------4--------------------------4--------------------
6|---------------------------------------------------------------

1|---------------------------------------------------------------
2|--------------------------------3-2----1/3--1------------------
3|-----------------------3-2---------------------2-0------1-1-1-1
4|----------2-3----0-2-3-----0-3---------------------3-0---------
5|-2-3-4-5-------4-----------------------------------------------
6|---------------------------------------------------------------

1|---------------------------------------------------------------
2|-1-0-----------------------------------------------------------
3|---------------------------------------------------------------
4|-------3--0-0--------------------------------------------------
5|--------4------------------------------------------------------
6|---------------------------------------------------------------

Fuente: Tusacordes