a b c d e f g h i j k l m n o p q r s t u v w x y z 0-9

La Pantera Rosa

Canciones Populares

			
1--------------------------------------------
2--------------------3-2-----2-1--1-1--------
3---------2-3----2-3-----2-3----------3------
4-0-3-4-5-----4-5-----------------------3-5-5

1---------2-0--------------------------------
2-------------2-----0-1-1-1-1/0--------------
3---------------0-3-------------3------------
4-0-3-4-5-------------------------3-5-5------

Fuente: tusacordes.com