a b c d e f g h i j k l m n o p q r s t u v w x y z 0-9

La Pantera Rosa

Canciones Populares

			
aka les traigo a la muy adictiva de tocar "pantera rosa". ja ja ja esta wenisima

e|----------------------------------/--------------------------
B|----------------------------------/--------------------------
G|----------------------------------/--------------------------
D|----------------------3-2-----2/1-/----------------------3-2-
A|---------2-3------2-3-----2-3-----/---------2-3------2-3-----
E|2-3-4-5-------4-5-----------------/2-3-4-5-------4-5---------

e|--------/-------------------------------------------------
B|--------/-------------------------------------------------
G|----2/1-/-------------------------------------------------
D|--------/7-5----------------------------------------------
A|2-3-----/----7-5-----5/6-5/6-5/6-5/6----------------------
E|--------/--------8-5-----------------8-5-5/4-3/2-2-3-4-5--
                                                     |
                                                     |
                                                     |
                                              Este 2-3-4-5 se
                                              conecta con el
                                                siguiente

Fuente: tusacordes.com