a b c d e f g h i j k l m n o p q r s t u v w x y z 0-9

La Pantera Rosa

Canciones Populares

			
E|-----------------------------------------------------|
B|-----------------------------------------------------|
G|-----------------------------------------------------|
D|----------------------2-1------2-1---2-0-------------|
A|----------0-1--------------2-1-----------2-0--1h0----|
E|-0-1-2-p3-----0-1-2-3--------------------------------|

E|----------2-0----------------------------------------|
B|--------------3-0------------------------------------|
G|------------------2-0--p3p3p3p3p3-2-0p2--------------|
D|-----------------------------------------------------|
A|-----------------------------------------------------|
E|-0-1-2-3---------------------------------------------|

Fuente: tusacordes.com