a b c d e f g h i j k l m n o p q r s t u v w x y z 0-9

La Pantera Rosa

Canciones Populares

			
Bueno este punteo ej muy bueno ami me gusta y la saque yo jeje ejpero que lej gujte

1ra Parte
1|--------------------------------------------------------------
2|--------------------------------------------------------------
3|---------------------------7--6----7-6-6-7--------------------
4|1-2-3-4--6--7--3--4--6--7------7--6-------7-6--55-------------
5|--------------------------------------------------------------
6|--------------------------------------------------------------


2da Parte : En esta parte tienen que usarla con 2 Dedos. En la parte de la 1ra cuerda hasta la tercera van subiendo de 7 a 5 ,y asi en la 1ra ,2da y 3ra cuerda, espero me entiendan
1|----------7---------5-----------------------------------------
2|-----------7----------5---------------------------------------
3|------------7-----------5----7-7-7-7---7---5------------------
4|1?2?3?4-------------------------------------7-5?5-7-0---------
5|--------------------------------------------------------------6|--------------------------------------------------------------
FIN

Espero les haya gustado y le hayan entendido , si ay correciones ,las recibo plenamente ,gracias

Fuente: tusacordes.com