a b c d e f g h i j k l m n o p q r s t u v w x y z 0-9

La Pantera Rosa

Canciones Populares

			
Intro

G|---------------------|
D|---------------------|
A|-4h5-6h7-------------|
E|-----------7--0------|x4

primera parte

G|----------------------5-4-----------------|
D|---------4-5------4-5-------5-9-8-5-------|
A|-4-5-6-7-----6-7----------7---------7-5-7-|
E|------------------------------------------|

segunda parte

G|---------------------5-4-----7-5--------|
D|---------4-5-----4-5-------5------------|
A|-4-5-6-7-----6-7---------7--------------|
E|----------------------------------------|

se repite la primera parte


el final
G|---------9-7--------------------------------------|
D|-------------9-7-5-7h8-7h8-7h8-5------------------|
A|-4-5-6-7-------------------------7-5-7------------|
E|---------------------------------------7-0--------|

Fuente: tusacordes.com