a b c d e f g h i j k l m n o p q r s t u v w x y z 0-9

La Pantera Rosa

Canciones Populares

			
Ahí les va:

-]---------------------------------------------------------------------------------------------------------
-]---------------------------------------------------------------------------------------------------------
-]---------------------------------------------------------------------------------------------------------
-]------------------------------------------------------3/2-------2/1----0---------------------------------
-]---------------------------------------2/3------2/3--------0/3-----------3-0-----0-----------------------
-]---2/3-4/5--------2/3--4/5----2/3-4/5------4/5---------------------------------3-------------------------


-]---------------------------------------------------------------------------------------------------------
-]---------------------------------------------------------------------------------------------------------
-]---------------------------------------------------------------------------------------------------------
-]------------------------------------------------------3/2-------2/1----0---------------------------------
-]---------------------------------------2/3------2/3--------0/3-----------3-0-----0-----------------------
-]---2/3-4/5--------2/3--4/5----2/3-4/5------4/5---------------------------------3-------------------------
                         P  P  P  P
-]--5----------------/---------------/-------------/---------------
-]----8--5-----------/---------------/-------------/---------------
-]---------7-5---5--7/---8--8--8--8--/---7--5--0---/---7--5--0-----
-]-------------6-----/---------------/----------7-7/-----------7-7-
-]-------------------/---------------/-------------/---------------
-]-------------------/---------------/-------------/---------------

Espero que les haya gustado esta cancion que es simple y que no me costo mucho sacarla así que ustedes si van a poder hacerlo....

suerte en el tema ... estoy sacando otras....MaRiAn07

Fuente: tusacordes.com