a b c d e f g h i j k l m n o p q r s t u v w x y z 0-9

La Guadalupana

Canciones Populares

			
La Guadalupana

Intro:
-
1---------0--------0---------------------
2-------1----3-1----3-1----------------
3--0-0--------------------0-------------

1---------0--------0---------------------
2-------1----3-1----3-1----------------
3--0-0--------------------0-------------

1--0-0-0--3-1-1----------1-0-0----------0------------0-0----
2--------------------3-3-3----------1-1-1---3-3-3--1-----1--
3-----------------------------------------------------------

1--0-0-0--3-1-1----------1-0-0----------0------------0-0----
2--------------------3-3-3----------1-1-1---3-3-3--1-----1--
3-----------------------------------------------------------



es todo amigosas

Fuente: tusacordes.com