a b c d e f g h i j k l m n o p q r s t u v w x y z 0-9

La Cucaracha

Canciones Populares

			
Re+
|------------2--|------------2--|---------------|
|---------3-----|---------3-----|-3-3-2-2-0-0---|
|-2--2--2-------|-2--2--2-------|-------------2-|
|---------------|---------------|---------------|
|---------------|---------------|---------------|
|---------------|---------------|---------------|

      La+
|------------0--|------------0--|-3-3-2-2-0-0---|
|---------2-----|---------2-----|-------------3-|
|-2--2--2-------|-2--2--2-------|---------------|
|---------------|---------------|---------------|
|---------------|---------------|---------------|
|---------------|---------------|---------------|

Fuente: tusacordes.com