a b c d e f g h i j k l m n o p q r s t u v w x y z 0-9

La Cucaracha

Canciones Populares

			
weno aki les dejo una cancion muy conocida =)

e|---------0--4-----|  
b|---0-0-0----------|
g|------------------|X2
D|------------------|
A|------------------|
E|------------------|


e|---0-0-------------
b|--------4-4--2-2--0
g|-------------------
D|-------------------
A|-------------------
E|-------------------

e|--------------2----|
b|-----0-0-0-4-------|
g|-------------------|X2
D|-------------------|
A|-------------------|
E|-------------------|

e|---9-9-7-7-5-5-4---
b|-------------------
g|-------------------
D|-------------------
A|-------------------
E|-------------------

Fuente: tusacordes.com