a b c d e f g h i j k l m n o p q r s t u v w x y z 0-9

La Cucaracha

Canciones Populares

			
------------------------------------------------------
------------------------------------------------------
------------------------------------------------------
-----------4---------4--0-0---------------------------
---0-0-0-5---0-0-0-5--------4-4-2-2-0-----------------
------------------------------------------------------


-----------------------------------------------------
-----------------------------------------------------
-------------------------4---------------------------
---------2---------2---7---7-5-4---------------------
-0-0-0-4---0-0-0-4---------------7-5-----------------
-----------------------------------------------------
esta es la parte de ya se va la cucaracha ya la llevan a enterrar...

-------------------------------------------------------
-------------------------------------------------------
----------------------4--------------------------------
--0-0-4-4-7-7-7-4---7---7-5-4---5----------------------
------------------------------7---7--------------------
-------------------------------------------------------



-------------------------------------------------------
-------------------------------------------------------
---------------------4---------------------------------
-------------------7---7-5-4---------------------------
-0-0-4-4-7-7-7-4-------------7-5-----------------------
-------------------------------------------------------

esta es toda la cancion y suena  bien chido toquenla pa cotorrear y si
le ponen ditorcion el la guitarra electrica y lo tocan con mucha velocidad 
se oye bien chingon pruebenla

Fuente original ATAME [www.atame.org]
Colaborador original: mario guillermo gonzalez aquino [papito]

Fuente: tusacordes.com