a b c d e f g h i j k l m n o p q r s t u v w x y z 0-9

La Cucaracha

Canciones Populares

			
Este tab es para guitarra NO para requinto 


e--------1-5--------1-5--1-1-0-0-----------------------
B--1-1-1------1-1-1--------------3-3-1-----------------
G------------------------------------------------------
D------------------------------------------------------
A------------------------------------------------------
E------------------------------------------------------


e--------0-3--------0-3--8-10-8-6-5-3-1----------------
B--1-1-1------1-1-1------------------------------------
G------------------------------------------------------
D------------------------------------------------------
A------------------------------------------------------
E------------------------------------------------------


e------1-1-5-5-8-5--8-10-8-6-5-8-6-3-------------------
B--1-1-------------------------------------------------
G------------------------------------------------------
D------------------------------------------------------
A------------------------------------------------------
E------------------------------------------------------


e------0-0-3-3-6-3--8-10-8-6-5-3-1---------------------
B--1-1-------------------------------------------------
G------------------------------------------------------
D------------------------------------------------------
A------------------------------------------------------
E------------------------------------------------------

Fuente original ATAME [www.atame.org]
Colaborador original: LUIS ALVERDI [luisalverdi@hotmail.com]

Fuente: tusacordes.com