a b c d e f g h i j k l m n o p q r s t u v w x y z 0-9

La Bamba

Canciones Populares

			
1----------------------------------------------------------------
2----------------------------------------------------------------
3-----------------------2--0----------------------------------2-0
4--------------0--2--3--------0--0--0--3--3--2--------0--2--3----
5-----0--2--3--------------------------------------3-------------
6--3-------------------------------------------------------------

1--1-1-1-1-1-1-1-1-0-------------1-1-1-1-1-1-1-1-0---------------
2--------------------1---1-1--3--------------------1---1-1--3--1-
3----------------------------------------------------------------
4----------------------------------------------------------------
5----------------------------------------------------------------
6----------------------------------------------------------------

Fuente: tusacordes.com