a b c d e f g h i j k l m n o p q r s t u v w x y z 0-9

Intro Bob Esponja

Canciones Populares

			
vive en una piña debajo del mar...bob es-pon-ja...
------------------------------------------------------
------------------------------------------------------
-7-7-9-7-------7-7-9-7--------------------------------
---------9-------------9------------------------------
-----------10-----------------------------------------
------------------------------------------------------

su cuerpo absorbe y sin estallar.......bob es-pon-ja...
------------------------------------------------------
------------------------------------------------------
--12-12-14-12------------12-12-14-12------------------
---------------14--------------------14---------------
------------------15----------------------------------
------------------------------------------------------

el mejor amigo que podrias desear...bob es-pon-ja...
------------------------------------------------------
------------------------------------------------------
--7-7-9-7-------7-7-9-7-------------------------------
----------9-------------9-----------------------------
------------10----------------------------------------
------------------------------------------------------

Fuente: tusacordes.com