a b c d e f g h i j k l m n o p q r s t u v w x y z 0-9

Himno De La Alegria

Canciones Populares

			
Espero que les guste esta es la versión original del himno de la alegría:

e-0-0-1-3-3-1-0---------0-0-----0-0-1-3-3-1-0---------0------------
b---------------3-1-1-3-----3-3---------------3-1-1-3---3-1-1------
g------------------------------------------------------------------
d------------------------------------------------------------------
a------------------------------------------------------------------
e------------------------------------------------------------------

e-----0-----0-1-0-----0-1-0-------3-0-0-1-3-3-1-0---------0--------
b-3-3---1-3-------1-3-------3-1-3-----------------3-1-1-3---3-1-1--
g------------------------------------------------------------------
d------------------------------------------------------------------
a------------------------------------------------------------------
e------------------------------------------------------------------

Fuente: Tusacordes