a b c d e f g h i j k l m n o p q r s t u v w x y z 0-9

Himno De La Alegria

Canciones Populares

			
imno de la alegria ... suerte =) esta bien redactada xD

||-0--0--1--3-|-3--1--0----|----------0-|-0----------|| 
||------------|----------3-|-1--1--3----|------3-----|| 
||------------|------------|------------|------------|| 
||------------|------------|------------|------------|| 
||------------|------------|------------|------------|| 
||------------|------------|------------|------------|| 


||-0--0--1--3-|-3--1--0----|----------0-|------------|| 
||------------|----------3-|-1--1--3----|-3----1-----|| 
||------------|------------|------------|------------|| 
||------------|------------|------------|------------|| 
||------------|------------|------------|------------|| 
||------------|------------|------------|------------|| 


||-----0?-----|-0-1--0-----|-0-1?0------|------------|| 
||-3-----1--3-|--------1--3|---------3--|1?3---------|| 
||------------|------------|------------|---------0--|| 
||------------|------------|------------|------------|| 
||------------|------------|------------|------------|| 
||------------|------------|------------|------------|| 


||-0?-0?-1?-3-|-3--1--0----|----------0-|------------|| 
||------------|----------3-|-1--1--3----|-3---1------|| 
||------------|------------|------------|------------|| 
||------------|------------|------------|------------|| 
||------------|------------|------------|------------|| 
||------------|------------|------------|------------||

Fuente: tusacordes.com