a b c d e f g h i j k l m n o p q r s t u v w x y z 0-9

Himno De La Alegria

Canciones Populares

			
|-----------------------------|
|-0-1-3-3-1-0---------0-0-----|
|-------------2-0-0-2-----2-2--| <<< RIFF 1>>>
|-----------------------------|
|-----------------------------|
|-----------------------------|

-------------------------------------------------------

|-----------------------------|
|-0-1-3-3-1-0---------0-------|
|-------------2-0-0-2---2--0-0-| <<< RIFF 2>>>
|-----------------------------|
|-----------------------------|
|-----------------------------|

-------------------------------------------------------

|------------------------------
|---0------0-1-0------0-1-0----------
|-2---0--2-------0--2--------2-0-2-----
|----------------------------------0
|-----------------------------------
|-----------------------------------


-------------------------------------------------------

|-----------------------------|
|-0-1-3-3-1-0---------0-------|
|-------------2-0-0-2---2--0-0-| <<< RIFF 2>>>
|-----------------------------|
|-----------------------------|
|-----------------------------|

------------------------------------------------------

Fuente: tusacordes.com