a b c d e f g h i j k l m n o p q r s t u v w x y z 0-9

Himno A La Alegria

Canciones Populares

			
Espero que les guste es una versión un poco mas simple.

1]-0-0-1-3-3-1-0-------0-0---0-1-3-3
2]---------3-1-1---1--3-3-----------
3]----------------------------------
4]----------------------------------
5]----------------------------------
6]----------------------------------


1]-1-0------0------0-----0-1-0------
2]---3-1-1-3--3-1-1-3-3--1--3---1---
3]----------------------------------
4]----------------------------------
5]----------------------------------
6]----------------------------------


1]-0-1-0---------0-0-1-3-3-1-0------
2]3---3-1-3------------3-1-1--------
3]----------0-----------------------
4]----------------------------------
5]----------------------------------
6]----------------------------------

1]-1--------------------------------
2]3-3-1-1---------------------------
3]----------------------------------
4]----------------------------------
5]----------------------------------
6]----------------------------------

Fuente: Tusacordes