a b c d e f g h i j k l m n o p q r s t u v w x y z 0-9

Himno A La Alegria

Canciones Populares

			
PARTE 1

e|--7-7-8-10-10-8-7-5-3-3-5-7-7-5-5-|
B|----------------------------------|
G|----------------------------------|
D|----------------------------------|
A|----------------------------------|
E|----------------------------------|

PARTE 2 

e|-7-7-8-10-10-8-7-5-3-3-5-7-5-3-3|
B|--------------------------------|
G|--------------------------------|
D|--------------------------------|
A|--------------------------------|
E|--------------------------------|

PARTE 3

e|--5-5-7-3-5-7-8-7-3-5-7-8-7-5-3-5--|
B|----------------------------------3|
G|-----------------------------------|
D|-----------------------------------|
A|-----------------------------------|
E|-----------------------------------|



PARTE 4

e|-7-7-8-10-10-8-7-5-3-3-5-7-5-3-3|
B|--------------------------------|
G|--------------------------------|
D|--------------------------------|
A|--------------------------------|
E|--------------------------------|


BUENO...LA SAQE YO SOLO..ASIQE SI NO LES GUSTA..A MI SI

Fuente: tusacordes.com