a b c d e f g h i j k l m n o p q r s t u v w x y z 0-9

Guyra Campana- Pájaro Campana (polca Paraguay

Canciones Populares

			
1----3---------3---------3---------3----------------
2---------1---------1---------0---------0-----------
3--------------------------------------------------
4--------------------------------------------------
5------------------------------------------------
6-----------------------------------------------
esto se repite, sólo q mas rapido

1----3---3---3---3---3---3---3---3-----------------------
2--1---1---1---1---0---0---0---0-------------------------
3------------------------------------------------
4------------------------------------------------
5------------------------------------------------
6------------------------------------------------
esto se repite otra vez

1---3---3-3--1----------------------------------
2-0-------------3--1-0-1-------------------------
3-------------------------------------------
4-------------------------------------------
5-------------------------------------------
6-------------------------------------------

1-0-0-0--1-0------------1-1--3-3--5--0-------------------
2-------------3--1-1-0------------------------------
3-----------------------------------------------
4---------------------------------------------
5--------------------------------------------
6----------------------------------------------
en la parte del 3 al 5, sólo se pasa sin tocar nada 

1-0-0-0--1-0---------------3-3--1--0----------------------0---1---3---
2--------------3--1-1-0--------------3--1-0-1----0---1--3----------------
3----------------------------------------------2-------------
4-----------------------------------------------------------
5-----------------------------------------------------------
6----------------------------------------------------------
luego se empieza de nuevo

Fuente: tusacordes.com