a b c d e f g h i j k l m n o p q r s t u v w x y z 0-9

Guantanamera

Canciones Populares

A
D
E
			
Intro:   
                                                2X
               A           D      E
e---------------------X------------2-------X-------|
B-------------------2------------3-------X---------|
G-----------------2------------2-------1-----------|
D----------------------------X---------------------|
A--------------X-----------------------------------|
E----X--2--4------------------------X--------------|

Se repite lo mismo en toda la cancion:

e---------------------X------------2-------X-------|
B-------------------2------------3-------X---------|
G-----------------2------------2-------1-----------|
D----------------------------X---------------------|
A--------------X-----------------------------------|
E----X--2--4------------------------X--------------|


  Yo soy un hombre sincero de donde crece la palma
  Yo soy un hombre sincero de donde crece la palma
  Y antes de morirme quiero
  Cantar mis versos del alma

  Guantanamera, guajira, guantanamera
  Guantanamera, guajira, guantanamera
  
  Mi verso es de un verde claro
  Y de un jazmin encendido
  Mi verso es de un verde claro
  Y de un jazmin encendido
  Mi verso es un ciervo herido
  Que busca en el mundo amparo

  Guantanamera, guajira, guantanamera
  Guantanamera, guajira, guantanamera

Fuente original ATAME [www.atame.org]
Colaborador original: Maria [hmaria@latinmail.com]

Fuente: tusacordes.com