a b c d e f g h i j k l m n o p q r s t u v w x y z 0-9

El Tololoche Chicoteado

Canciones Populares

D
G
			
Saludos a Cd. Obregón Sonora


Esta en la escala de Re Mayor D

iniciando en el 4to grado. G


BAJEO:

          G                   D                   A                     D
e|-------------------|-------------------|-------------------|--------------------|
B|-------------------|-------------------|-------------------|--------------------|
G|-------------------|--4----------------|-------------------|-------------7-6-5--|
D|------4-5-------5--|----7-5-4-------4--|--7-5-4------------|--4h5p4-------------|
A|--5-7-----5---5----|----------5---5----|--------7-5-4-5-7--|--------7-5--5-4-3--|
E|------------5------|------------5------|-------------------|--------------------|

          G                   D                   A                     D
e|-------------------|-------------------|-------------------|--------------------|
B|-------------------|-------------------|-------------------|--------------------|
G|-------------------|--4----------------|-------------------|--------------------|
D|------4-5-------5--|----7-5-4-------4--|--7-5-4------------|--4h5p4-------------|
A|--5-7-----5---5----|----------5---5----|--------7-5-4-5-7--|--------7-5---------|
E|------------5------|------------5------|-------------------|--------------------|

          D                    A                   D                    G
e|-------------------|-------------------|-------------------|--------------------|
B|-------------------|-------------------|-------------------|--------------------|
G|-------------------|-------------------|-------------------|--------------------|
D|-------------------|-------------------|-------------------|----4-5---5-5-5--5-5|
A|----5-5-5---5-5-5--|----7-7-7---7-7-7--|----5-5-5---5-5-5--|5-7-----5------5----|
E|--5-------5--------|--5-------5--------|--5-------5--------|--------------------|
           
           D                   D                   A                    A
e|-------------------|-------------------|-------------------|--------------------|
B|-------------------|-------------------|-------------------|--------------------|
G|-------------------|-------------------|-------------------|--------------------|
D|--5-4------4-7-----|--4-7------4-7-----|------------7------|--------7-----------|
A|------7-5------5---|------5--------5---|--4-----4-7---7-4--|--4--7-----7--4-----|
E|-------------------|-------------------|----7-5----------5-|-----------------5--|

           A                  
e|-------------------|-------------------|-------------------|
B|-------------------|-------------------|-------------------|
G|-------------------|------------4-6-7--|--7-6-4------------|
D|-----7-9-7-5-4-----|------4-5-7--------|--------7-5-4------|
A|-4-7-----------7-5-|--5-7--------------|--------------7-5--|
E|-------------------|-------------------|-------------------|



REQUINTO:  Escala de Re


e|-5-5-7-7--9--9-10---9--7--5--7-5-5-5-5-5-5-5--5-5-5-7-3--3-3-3-3-3-3-3--3-3-3-5-7--
B|-7-7-8-8-10-10-12--10--8--7--8-7-7-7-7-7-7-7--7-7-7-8-5--5-5-5-5-5-5-5--5-5-5-7-8--
G|-----------------------------------------------------------------------------------
D|-----------------------------------------------------------------------------------
A|-----------------------------------------------------------------------------------
E|-----------------------------------------------------------------------------------

e|-5-5-5-5-5-5-5--5-5-5-7-3--3-3-3-5-7-7-5-3-2--|
B|-7-7-7-7-7-7-7--7-7-7-8-5--5-5-5-7-8-8-7-5-3--|
G|----------------------------------------------|
D|----------------------------------------------|
A|----------------------------------------------|
E|----------------------------------------------|

e|-2-2-2-3-3/5--5--5-5--3-3-3-5-5/7--7--7-7--5-5-5-7-7/9---10-10-10--9-7--9-7-5-7-5-5--
B|-3-3-3-5-5/7--7--7-7--5-5-5-7-7/8--8--8-8--7-7-7-8-8/10--12-12-12-10-8-10-8-7-8-7-7--
G|-------------------------------------------------------------------------------------
D|-------------------------------------------------------------------------------------
A|-------------------------------------------------------------------------------------
E|-------------------------------------------------------------------------------------

e|-2-2-2-3-3/5--5--5-5--3-3-3-5-5/7--7--7-7--5-5-5-7-7/9---10-10-10--9-7--9-7-5-3-2-2--
B|-3-3-3-5-5/7--7--7-7--5-5-5-7-7/8--8--8-8--7-7-7-8-8/10--12-12-12-10-8-10-8-7-5-3-3--
G|-------------------------------------------------------------------------------------
D|-------------------------------------------------------------------------------------
A|-------------------------------------------------------------------------------------
E|-------------------------------------------------------------------------------------

e|-5-5-7-7--9--9-10---9--7--5--7-5-5-5-5-5-5-5--5-5-5-7-3--3-3-3-5-7-7-5-3-2--||
B|-7-7-8-8-10-10-12--10--8--7--8-7-7-7-7-7-7-7--7-7-7-8-5--5-5-5-7-8-8-7-5-3--||
G|----------------------------------------------------------------------------||
D|----------------------------------------------------------------------------||
A|----------------------------------------------------------------------------||
E|----------------------------------------------------------------------------||.

      Checa Bien el requinto, hay reglones que parecen iguales
      pero no lo son. Va en el orden esacto que biene aquí.



  La canción se toca en el siguiente orden:
   -Bajeo
   -Requinto
   -Bajeo
   -Requinto
   -Bajeo.

dudas: jorgernesto_@hotmail.com

Fuente original ATAME [www.atame.org]
Colaborador original: Jorge Ernesto Enríquez Espinoza [jorgernesto_@hotmail.com]

Fuente: tusacordes.com