a b c d e f g h i j k l m n o p q r s t u v w x y z 0-9

El Padrino

Canciones Populares

			
Bueno Gente por ahora saque esto
   si alguien saca más mandame un mail a tomy_jpj_94@hotmail.com


1|-----1---3---4---1---3---1---4---1------------
2|-1-----------------------------------3---4---1
3|----------------------------------------------
4|----------------------------------------------
5|----------------------------------------------
6|----------------------------------------------

1|-----1---3---4---1---3---1---4---1------------
2|-1-----------------------------------3---4---2
3|----------------------------------------------
4|----------------------------------------------
5|----------------------------------------------
6|----------------------------------------------

1|---------1---4-----------1---3----------------
2|-1---3-----------1---3------------------------
3|----------------------------------------------
4|----------------------------------------------
5|----------------------------------------------
6|----------------------------------------------

Fuente: tusacordes.com