a b c d e f g h i j k l m n o p q r s t u v w x y z 0-9

El Padrino

Canciones Populares

			
esta es la primera guitarra del tema de la pelicula el padrino
            2 veces:
e----0-3--I-2-0-3-0-2-0-------I--------------------------
b--0------I-------------1-3---I--0-----------------------
G---------I-------------------I--------------------------      D---------I-------------------I--------------------------      A---------I-------------------I--------------------------      E---------I-------------------I--------------------------

e----------------0--I--2------------4----I0-----------------I  
B--------------1----I-------------1------I------------0-3---I   
G--2---------2------I-----------2--------I-----0------------I
D-------------------I--------------------I------------------I
a-------------------I--------------------I------------------I
E-------------------I--------------------I------------------I

e--------------------I---------------0-3-
B--1-0-3-2-1-0-------I-------------0-----
G--------------0-----I-------------------
D----------------4---I--2----------------
A--------------------I-------------------
E--------------------I-------------------

e-----------0-0----I-------------2-0---I-----------------------
B---------------4--I--3--------------1-I--0---------0-3-0------
G------------------I-------------------I-----------------------
D--2---------------I-------------------I-----------------------
A------------------I-------------------I-----------------------
E------------------I-------------------I-----------------------

e---------------------I--------------0-3---I
B--------------1------I--0---------0-------I
G--2---------2---2----I--------------------I
D---------------------I--------------------I
A---------------------I--------------------I
E---------------------I--------------------I

Fuente: tusacordes.com