a b c d e f g h i j k l m n o p q r s t u v w x y z 0-9

El Condor Pasa

Canciones Populares

			
                        ,  
1)---------------------------0---------------------/
2)--------------------0--3-0---3-0----------------/
3)------------0---0-2--------------2-0---0-------/
4)----2-1-2-4---4----------------------4---4-2--/
5)--2------------------------------------------/
6)--------------------------------------------/


                        ,  
1)---------------------------0---------------------/
2)--------------------0--3-0---3-0----------------/
3)------------0---0-2--------------2-0---0-------/
4)----2-1-2-4---4----------------------4---4-2--/
5)--2------------------------------------------/
6)--------------------------------------------/


1)----0---0---0---0-3-0----0--------------------/
2)--0---4---4---4--------3---3-0---------------/
3)-------------------------------2-0---0---2--/
4)-----------------------------------4---4---/
5)------------------------------------------/
6)-----------------------------------------/


1)----0---0---0---0-3-0----0--------------------/
2)--0---4---4---4--------3---3-0---------------/
3)-------------------------------2-0---0---2--/
4)-----------------------------------4---4---/
5)------------------------------------------/
6)-----------------------------------------/

Fuente: tusacordes.com