a b c d e f g h i j k l m n o p q r s t u v w x y z 0-9

El Condor Pasa

Canciones Populares

			
1|-------------------------------15------17-15------------------------
2|----------------13--13-15-17------17--------17--17-15-13--13--------
3|--13-14-13-14-16--16------------------------------------14--14------
4|--------------------------------------------------------------------
5|--------------------------------------------------------------------
6|--------------------------------------------------------------------


1|---17-15-17-15-17-15-17--17-20-17-15--15-17-15-------17-15-17-15-17-15-17-----
2|-17--------------------------------------------17-17--------------------------
3|------------------------------------------------------------------------------
4|------------------------------------------------------------------------------
5|------------------------------------------------------------------------------
6|------------------------------------------------------------------------------


1|-17-20-17-15---15-17-15----------------------
2|-----------------------17-17-15-13---13------
3|----------------------------------14---14----
4|---------------------------------------------
5|---------------------------------------------
6|---------------------------------------------

Se repite todo otravez
intermedio
toda

Fuente original ATAME [www.atame.org]
Colaborador original: Jorge Sistos [sistos400_2@hotmail.com]

Fuente: tusacordes.com