a b c d e f g h i j k l m n o p q r s t u v w x y z 0-9

El Condor Pasa

Canciones Populares

			
Esta es mi primer tab asi que si es que hay un error dejen saber. escuchen la cancion para agarrar el tempo. 
El p es una finta que tienes que hacer por ejemplo 6p86 tocas la 6 y retocas la 8 y te vuelves a las 6.



El Condor Pasa


----------------------------5------8------5--10-8-5---5-----------------------
---------------5-6-5-6 -8---------------------------------8--6--6p86-----------
--------7-6-7--------------------------------------------------------7--------
----7-------------------------------------------------------------------------
------------------------------------------------------------------------------
------------------------------------------------------------------------------


-----------------------10-----9-----10------9-----10----9------10-------------
-----------------------11-----10----11------10----11----10-----11-------------
----7----9-----11------10-----9-----10------9-----10----9------10-------------
------------------------------------------------------------------------------
------------------------------------------------------------------------------
------------------------------------------------------------------------------



-10------10---13-----10---------6----6-9---6----6------5------------------------
-11------11---11------11--------9------9---0----9--------8--6--6p8--------6----
-10------10---10------10--------9---------------9---------------------7------7-
-------------------------------------------------------------------------------
-------------------------------------------------------------------------------
-------------------------------------------------------------------------------

Estoy buscando tablaturas punteo de musica criolla peruana. Si alguien sabe de algo por fa mandame un email @
cesar.zapata@sbcglobal.net

Fuente original ATAME [www.atame.org]
Colaborador original: ]

Fuente: tusacordes.com