a b c d e f g h i j k l m n o p q r s t u v w x y z 0-9

El Carnavalito

Canciones Populares

			
Hola a todos...aca les dejo la intro del tema...

e-0-0-0-0-2-3--------0-----0-0-0-0-2-3--------0-----------
b-------------3-3-3-2-3----------------3-3-3-2-3----------
g---------------------------------------------------------
d---------------------------------------------------------
a---------------------------------------------------------
e---------------------------------------------------------

e---------------------------------------------------------
b-0-0-0-3-0-0-0-3-0-0-0-------0-0-0-3-0-0-0-3-0-0-0-------
g------2-------2-------2-0---------2-------2-------2-0----
d-------------------------2---------------------------2---
a---------------------------------------------------------
e---------------------------------------------------------

Fuente: tusacordes.com