a b c d e f g h i j k l m n o p q r s t u v w x y z 0-9

El Carnavalito

Canciones Populares

			
EL HUMAHUAQUEÑO

INTRO
    F# Bm            F# Bm         A       Bm A       Bm A           Bm     
E --9--10-10-10-10---9--10-10-10---2-5-2---2--2-5-2---2--2-5-2---2-----
B -11--12-12-12-12--11--12-10-10---------5---------5-----------5---5-2-
G --9--11-11-11-11---9--12-10-10---------------------------------------
D ---------------------------------------------------------------------
A ---------------------------------------------------------------------
E ---------------------------------------------------------------------

    A       Bm A       Bm A           Bm     
E --2-5-2---2--2-5-2---2--2-5-2---2------|
B --------5---------5-----------5---5----|
G ------------------------------------4--|
D ---------------------------------------|
A ---------------------------------------|
E ---------------------------------------|

    G
Llegando está el carnaval 
      D 
quebradeño mi cholitay,
    G
llegando está el carnaval 
      D
quebradeño mi cholitay,
Bm        A     Bm
fiesta de la quebrada
  A    Bm      F#7   Bm
humahuaqueña para bailar,
Bm       A       Bm
erke, charango y bombo
    A  Bm     F#7   Bm
carnavalito para bailar,
G           E7  A7	Bm
quebradeño, humahuaqueñito,
G           E7  A7	Bm
quebradeño, humahuaqueñito,
Bm        A     Bm
fiesta de la quebrada
  A    Bm      F#7   Bm
humahuaqueña para bailar,
Bm       A       Bm
erke, charango y bombo
    A  Bm     F#7   Bm
carnavalito para bailar.


PUENTE
      G                D               G                Bm        
E -------------------------------------------------------------------
B --------------3--2-----------------------------3--2----------------
G ----4-4-4-4-4------4-2-2-2-1-4-2-----4-4-4-4-4------4-2-2-2-1-4-2--
D --4--------------------------------4-------------------------------
A -------------------------------------------------------------------
E -------------------------------------------------------------------


Bm        A     Bm
fiesta de la quebrada
  A    Bm      F#7   Bm
humahuaqueña para bailar,
Bm       A       Bm
erke, charango y bombo
    A  Bm     F#7   Bm
carnavalito para bailar.


PUENTE

    A       Bm A       Bm A           Bm     
E --2-5-2---2--2-5-2---2--2-5-2---2---2--
B --------5---------5-----------5---5----
G ---------------------------------------
D ---------------------------------------
A ---------------------------------------
E ---------------------------------------

    A       Bm A       Bm A           Bm     
E --2-5-2---2--2-5-2---2--2-5-2---2------
B --------5---------5-----------5---5----
G ------------------------------------4--
D ---------------------------------------
A ---------------------------------------
E ---------------------------------------

    A       Bm A       Bm A           Bm     
E --2-5-2---2--2-5-2---2--2-5-2---2---2--
B --------5---------5-----------5---5----
G ---------------------------------------
D ---------------------------------------
A ---------------------------------------
E ---------------------------------------

    A       Bm A       Bm A           Bm     
E --2-5-2---2--2-5-2---2--2-5-2---2--------|
B --------5---------5-----------5---5------|
G ------------------------------------4-4-4|
D -----------------------------------------|
A -----------------------------------------|
E -----------------------------------------|

    G
Llegando está el carnaval 
      D 
quebradeño mi cholitay,
    G
llegando está el carnaval 
      D
quebradeño mi cholitay,
Bm        A     Bm
fiesta de la quebrada
  A    Bm      F#7   Bm
humahuaqueña para bailar,
Bm       A       Bm
erke, charango y bombo
    A  Bm     F#7   Bm
carnavalito para bailar,
G           E7  A7	Bm
quebradeño, humahuaqueñito,
G           E7  A7	Bm
quebradeño, humahuaqueñito,
Bm        A     Bm
fiesta de la quebrada
  A    Bm      F#7   Bm
humahuaqueña para bailar,
Bm       A       Bm
erke, charango y bombo
    A  Bm     F#7   Bm
carnavalito para bailar.


  G
Laralaralarala
    D
laralaralara,
  G
laralaralarala
    D
laralaralara . . .



Bm        A     Bm
fiesta de la quebrada
  A    Bm      F#7   Bm
humahuaqueña para bailar,
Bm       A       Bm
erke, charango y bombo
    A  Bm     F#7   Bm
carnavalito para bailar,
Bm        A     Bm
fiesta de la quebrada
  A    Bm      F#7   Bm
humahuaqueña para bailar,
Bm       A       Bm
erke, charango y bombo
    A  Bm     F#7   Bm
carnavalito para bailar,
Bm        A     Bm
fiesta de la quebrada
  A    Bm      F#7   
humahuaqueña . . . etc.


FINAL Bm  A  Bm  A  Bm  F#7  Bm

Fuente original ATAME [www.atame.org]
Colaborador original: Jorge Vargas Johnston [jorvarjohn_61@hotmail.com]

Fuente: tusacordes.com