a b c d e f g h i j k l m n o p q r s t u v w x y z 0-9

El Carnavalito

Canciones Populares

			
DICE ASI:


1.----------------------------|
2.-----1----------1-----------|
3.-------2-0-2------2-0-2--0-2|
4.--2-----------2-------------|

1.--------------------------------------|----------------------------------------------|
2.-------------1-0----------------------|
3.-----2-2-2-2-----2-0-0-0-0-0-0-2-0----|
4.--2----------------------------------2|----------------------------------------------|


1.--------------------------------------|----------------------------------------------|
2.-------------1-0----------------------|
3.-----2-2-2-2-----2-0-0-0-0-0-0-2-0----|
4.--2----------------------------------2|----------------------------------------------|

1.-0-0-0---3-0-0-0----3-0-0-0-----------|----------------------------------------------|
2.-------3---------3----------3-1-------|
3.---------------------------------2----|
4.--------------------------------------|----------------------------------------------|

1.-0-0-0---3-0-0-0----3-0-0-0-----------|----------------------------------------------|
2.-------3---------3----------3-1-------|
3.---------------------------------2----|
4.--------------------------------------|----------------------------------------------|

1.--------------------------------------------------|----------------------------------|
2.--------------------------1-0---------------------|
3.--0-2-0-2-0-2-2-2---2-2-2-----2-0-0-0-0-0-0-2-0---|
4.------------------------------------------------2-|----------------------------------|

1.-----------------------------------|-------------------------------------------------|
2.-----------1-0---------------------|
3.----2-2-2------2-0-0-0-0-0-0-2-0---|
4.--2--------------------------------|-------------------------------------------------|

1.-0-0-0---3-0-0-0----3-0-0-0-----------|----------------------------------------------|
2.-------3---------3----------3-1-------|
3.---------------------------------2----|
4.--------------------------------------|----------------------------------------------|

1.---------------------------|---------------------------------------------------------|
2.---------------------------|
3.--0-2-0-2-0-2-2-2---2-2-2--|
4.---------------------------|---------------------------------------------------------|

ESTE ES EL VERDADERO REQUINTO DE LA CANCION, NO COMO OTROS QUE NADA MAS MANDAN UNA PARTE.

Fuente original ATAME [www.atame.org]
Colaborador original: tomas emilio martinez meza [Bloody_91@hotmail.com]

Fuente: tusacordes.com