a b c d e f g h i j k l m n o p q r s t u v w x y z 0-9

El Carnavalito

Canciones Populares

			
e|-0--5--5--5--5--8--7--5--3--3--3--5--2--3---------|
B|--------------------------------------------------|
G|--------------------------------------------------|x2
D|--------------------------------------------------|
A|--------------------------------------------------|
E|--------------------------------------------------|

e|-0--0--0--0--0----3--0--0--0--0-----3-------------|
B|----------------3----------------3----------------|
G|--------------------------------------------------|x2
D|--------------------------------------------------|
A|--------------------------------------------------|
E|--------------------------------------------------|

e|-0--0--0--0---------------------------------------|
B|-------------3--3--1------------------------------|
G|--------------------------------------------------|
D|--------------------------------------------------|
A|--------------------------------------------------|
E|--------------------------------------------------|

Fuente original ATAME [www.atame.org]
Colaborador original: Alejandro Recio Martinez [recio_alex@hotmail.com]

Fuente: tusacordes.com