a b c d e f g h i j k l m n o p q r s t u v w x y z 0-9

El Carnavalito

Canciones Populares

			
Este es el requinto que yo saqué de la canción aunque no es muy largo
pero espero que les guste.


e|--------------------------------------------------|
B|--------------------------------------------------|
G|-----0--0--0--0--0--0--3--2--0--------------0-----|
D|--0-----------------------------3--3--3--0-----3--|
A|--------------------------------------------------|
E|--------------------------------------------------|


e|--------------------------------------------------|
B|--------------------------------------------------|
G|-----0--0--0--0--0--0--3--2--0--------------0-----|
D|--0-----------------------------3--3--3--0-----3--|
A|--------------------------------------------------|
E|--------------------------------------------------|


e|-----------------|-----------------|
B|-----------------|-----------------|
G|-----------------|-----------------|
D|--0--0--0--0--3--|--0--0--0--0--3--|
A|-----------------|-----------------|
E|-----------------|-----------------|


e|--------------------|
B|--------------------|
G|--------------3--0--|
D|--0--0--0--0--------|
A|--------------------|
E|--------------------|

Fuente original ATAME [www.atame.org]
Colaborador original: Oswaldo Del Rio Pineda "Tio" [anticristo-666@loquesea.com]

Fuente: tusacordes.com