a b c d e f g h i j k l m n o p q r s t u v w x y z 0-9

Cumpleaños Feliz

Canciones Populares

			
Cumpleaños
                                                                           
E||-----------------|-------1----0----|-----------------|-------3----1----|
B||--1----1----3----|--1--------------|--1----1----3----|--1--------------|
G||-----------------|-----------------|-----------------|-----------------|
D||-----------------|-----------------|-----------------|-----------------|
A||-----------------|-----------------|-----------------|-----------------|
E||-----------------|-----------------|-----------------|-----------------|


                                                                       
------------8----|--5----1----1----|--0-------------|--6----6----5----|
--1----1---------|-----------------|-------3--------|-----------------|
-----------------|-----------------|----------------|-----------------|
-----------------|-----------------|----------------|-----------------|
-----------------|-----------------|----------------|-----------------|
-----------------|-----------------|----------------|-----------------|


                              
--1----3--------|--1--------||
----------------|--1--------||
----------------|--2--------||
----------------|--3--------||
----------------|--3--------||
----------------|--1--------||

Fuente original ATAME [www.atame.org]
Colaborador original: Andres Piegari [ruta0@origimail.com.ar]

Fuente: tusacordes.com