a b c d e f g h i j k l m n o p q r s t u v w x y z 0-9

Cueca (punteo)

Canciones Populares

			
Bueno, estuve buscando unos punteos que tengan que ver con la cueca pero no encontre niuna weá xD , asi qe le pedi a mi profesor de guitarra que me enseñara algun punteo de cueca y bueno ahí no esta todo completo porque solo esto es lo que aprendi, talves en las proximas semanas me enseñe otro tipo de punteo de ese de los wenos y ahi lo subo... pero bueno ahí esta :B

Se tocan dos veces todas las notas excepto la ultima hasta la linea y es mas o menos rápido. Si conocen las figuras musicales, toda la tab esta en semis corcheas excepto después de la línea, las dos primeas notas estan en semi corchea y el resto en negras
  
 Amm, aclaro por si algo esta mal, hasta la linea mezcle una terminacion     de un punteo que me se, y luego agregue esos dos acordes  que van de acuerdo al punteo :B  y buneo espero que les haya servido xD

a)----------------------------------------------------------------------
b)----------------------------------------------------------------3-----
g)-------------------------------2-----2--4--2--0--------------2-----2--
d)---0--4--2--0---------------2-----4--------------4--2--0--4-----------
a)----------------4--2--0--4--------------------------------------------
E)----------------------------------------------------------------------

a)----------------------------------|-----------------------------------
b)----------------------------------|-----------------------------------
g)--------------------------------2-|-----------------------------------
d)--4--0--4--2--0--------------2----|------------------0----------------
a)------------------4--2--0--4------|---0-0---2----4--------------------
E)----------------------------------|-----------------------------------
                           
                  y bueno, para los que sepan algun tipo de rasgueo de 
         cueca puede hacerlo deguido de terminar toda la tab, con los 
           acordes  D Re Mayor y A La MayorFuente: Tus acordes