a b c d e f g h i j k l m n o p q r s t u v w x y z 0-9

Cielito Lindo

Canciones Populares

			
Este es mi primer aporte, espero que les guste ya que suena muy bien!

1---5--5--2--4---0--5--5--2--4---0--5--5--2--4--0-----------
2----?-----------?----------?--------------------3--0-------
3-----------------------------------------------------------
4------------------------------------------?----------------
5-----------------------------------------------------------
6-----------------------------------------------------------

1---4--4--4--2--0------------------0--0--0------------------
2----?-----------?-3--3---0--2--3?----------3--2--0---------
3----------------------------------------------------2------
4------------------------------------------?----------------
5-----------------------------------------------------------
6-----------------------------------------------------------

1---9--7--5--2---7--7--5--9--5---0--2---0--2--2--0--10--10--
2----?-----------?----------?-------------------------------
3-----------------------------------------------------------
4------------------------------------------?----------------
5-----------------------------------------------------------
6-----------------------------------------------------------

1---7--4--0--2--2--0----------------------------------------
2----?-----------?-----3--2--0-?----------------------------
3--------------------------------2--------------------------
4------------------------------------------?----------------
5-----------------------------------------------------------
6-----------------------------------------------------------

Fuente: Tusacordes