a b c d e f g h i j k l m n o p q r s t u v w x y z 0-9

Cielito Lindo

Canciones Populares

			
Bueno esta es mi primer tablatura, espero que haya quedado bien.




1------------------------------------------------------
2---1?1---0-----1?1---0----1?1---0---------------------
3-------2---0-------2---0-------2----0-----------------
4-----------------------------------------3?0----------
5------------------------------------------------------
6------------------------------------------------------


1------------------------------------------------------
2-0-0--0---0-------------------------------------------
3----------------2?0-0-----------0-0---0---------------
4--------------------------0-2-3----------3-2-0--------
5--------------------------------------------------0---
6------------------------------------------------------

1-0------------------0-------------------------1-1-----
2----3---1-----3-3-1---1----------------------------3--
3------------2-------------0-2-----0-2-2--0------------
4------------------------------------------------------
5------------------------------------------------------
6------------------------------------------------------

1------------------------------------------------------
2-0----------------------------------------------------
3---0-2-2--0-------------------------------------------
4-------------3-1-0------------------------------------
5-------------------0----------------------------------
6------------------------------------------------------



1------------------------------------------------------
2---1?1---0-----1?1---0----1?1---0---------------------
3-------2---0-------2---0-------2----0-----------------
4-----------------------------------------3?0----------
5------------------------------------------------------
6------------------------------------------------------


1------------------------------------------------------
2-0-0--0---0-------------------------------------------
3----------------2?0-0-----------0-0---0---------------
4--------------------------0-2-3----------3-2-0--------
5--------------------------------------------------0---
6------------------------------------------------------

1-0------------------0-------------------------1-1-----
2----3---1-----3-3-1---1----------------------------3--
3------------2-------------0-2-----0-2-2--0------------
4------------------------------------------------------
5------------------------------------------------------
6------------------------------------------------------

1------------------------------------------------------
2-0----------------------------------------------------
3---0-2-2--0-------------------------------------------
4-------------3-1-0------------------------------------
5-------------------0----------------------------------
6------------------------------------------------------

Fuente original ATAME [www.atame.org]
Colaborador original: ignacio fernando michel sánchez [nacho_michel]

Fuente: tusacordes.com