a b c d e f g h i j k l m n o p q r s t u v w x y z 0-9

Canon

Canciones Populares

			
W                    H          H             H          H
-------------------|------------------------|------------------------|
-------------------|--19~--------17~--------|--15~--------14~--------|
-------------------|------------------------|------------------------|
-------------------|------------------------|------------------------|
-------------------|------------------------|------------------------|
-------------------|------------------------|------------------------|


   H          H             H          Q      E   E
------------------------|----------------------------|
--12~--------10~--------|--12~--------14~----15--17--|
------------------------|----------------------------|
------------------------|----------------------------|
------------------------|----------------------------|
------------------------|----------------------------|


                      |---3---|
   H          E   E   S   S   S  E      Q.       S   S  E   E   E   E
--14~------------15--14h-15p-14-----|----------------------14--17--19--|
-------------17-----------------17--|--15~------17p-15-14--------------|
------------------------------------|----------------------------------|
------------------------------------|----------------------------------|
------------------------------------|----------------------------------|
------------------------------------|----------------------------------|


       |--3--|                  |--3--|
   E   S  S  S  E   E   E   E   S  S  S  E
--15--14-15-14-----15--14-------------------|
---------------17----------17--15-17-15-----|
----------------------------------------14--|
--------------------------------------------|
--------------------------------------------|
--------------------------------------------|


   E   E   E   E   T   T  T   T  T   T  T   T  T   T  T   T  T   T  T   T
--------------------------------------------------------------------------|
--------------15--14h-15-14h-15-14h-15-14h-15-14h-15-14h-15-14h-15-14h-15-|
--16--14--12--------------------------------------------------------------|
--------------------------------------------------------------------------|
--------------------------------------------------------------------------|
--------------------------------------------------------------------------|



-----------------------|-------------------------|------------------------|
-----------8--7--------|-------------5--7--------|-------------2-----3----|
7----------------------|-------------------------|--4---------------------|
7----------------------|--7----------------------|--4---------------------|
5----5--5--------5--5--|--7----------------0--0--|--2----2--2-----2-----2-|
-----------------------|--5----5--5--------------|------------------------|


       PM PM    PM    PM         PM PM PM                  PM PM
  Q    E  E  E  E  E  E     Q    E  E  E  Q     E     Q    E  E  E  E  E E
-----------------------|-------------------------|-----------------------|
-----------------------|-------------------------|-------------8--7--5---|
-----------------------|----------------4S----6--|--7-------------------7|
4----------2-----4-----|--5-------------5S----7--|--7--------------------|
4----------2-----4-----|--5----------------------|--5----5--5------------|
2----2--2--0--0--2--2--|--3----3--3--3-----------|-----------------------|


       PM PM                       PM PM
  Q    E  E  E   E   E  E     Q    E  E  E   E   E  E
---------------------------|---------------------------|
---------------------------|---------------------------|
-------------4S--6h--7--6--|-------------6S--7h--9--7--|
--5------------------------|--7------------------------|
--5------------------------|--7------------------------|
--3----3--3----------------|--5----5--5----------------|


   PM PM       PM PM         PM PM       PM PM         PM PM    PM  PM
Q    E  E  E  E  E  E     Q    E  E  E  E  E  E     Q    E  E  E  E  E  E
-----------------------|-------------------------|-----------------------|
-----------8--7--------|-------------5--7--------|-------------2-----3---|
7----------------------|-------------------------|--4--------------------|
7----------------------|--7----------------------|--4--------------------|
5----5--5--------5--5--|--7----------------0--0--|--2----2--2-----2-----2|
-----------------------|--5----5--5--------------|-----------------------|

coninua.....


leyendas de duracion
---------------
W - completa
H - media
Q - cuarto
E - 8
S - 16
T - 32
X - 64

Fuente: tusacordes.com