a b c d e f g h i j k l m n o p q r s t u v w x y z 0-9

Campanitas De Navidad

Canciones Populares

			
                                                      X2
E||--------------------------------------------------------------||
B||--------------------------------------------------------------||
G||-----------------0---------------------------------------0----||
D||-2-2-2--2-2-2--2-----0-2--3-3-3-3--3-2-2-2-2--2-0-0-2-0-------||
A||-------------------3------------------------------------------||
E||--------------------------------------------------------------||


E||--------------||
B||--------------||
G||-0--0---------||
D||------3-0-----||
A||----------3---||
E||--------------||

Fuente: tusacordes.com