a b c d e f g h i j k l m n o p q r s t u v w x y z 0-9

Caña Dulce

Canciones Populares

			
Caña Dulce

e-|----------|--------------------------|
B-|----0h1-1-|---0-1-3-----3-2-----2-3--|
G-|--2-------|-2-------2-------2--------|
D-|----------|-------0---0---0---0---0--|
A-|----------|--------------------------|
E-|----------|--------------------------|


e-|---------------|-0-----0-------------|
B-|-0-0h1-3-0-1-3-|---1-----0-----0-1---|
G-|---------------|-----2-----1---------|
D-|---------------|-2-----------2---2---|
A-|---------------|---------2-----------|
E-|---------------|---------------------|


e-|-0-0--3/5-----5-4-----0-4/--7---4-----|
B-|------3/5-5-----5-5-----5-5---8-5-5---|
G-|------3/5---5---4---4---4/------4---4-|
D-|----------------------------------------|
A-|------------------0---------------0-----|
E-|----------------------------------------|


e-|-0-1-0---------------------------------|
B-|-0-0-0-3-1-0-1-----1-0-----0-1---------|
G-|-------0-0-0---2-------1-----2---------|
D-|-----------------2-------2---2---------|
A-|-------------0-------2-----------------|
E-|---------------------------------------|


e-|------------------------------------|
B-|---0-1---0-1-0-----3-3-3-1-0--------|
G-|-2---2-2-----1-1---1-1-1-0-0-2-1~---|
D-|-----------------2------------------|
A-|-------------2-----------------2~---|
E-|------------------------------------|


e-|--------------|--0-----0-0-0-------0--|
B-|-0-1-3-0-1-3--|--1-1---1-1-1-3-1-0-1--|
G-|-0-0-0-0-0-0--|--0---0-0-0-0-0-0-0-2--|
D-|--------------|--------------------2--|
A-|--------------|--3-----------------0--|
E-|--------------|-----------------------|

e-|--0-5------4-4---|--0--4--4--7-7--4-4--0h1-0-------|
B-|----5------5-5---|--4--5--5--8-8--5-5--0---0-3-1-0-|
G-|----5------4-4---|--5--4--4--7-7--4-4--------0-0-0-|
D-|-----------------|---------------------------------|
A-|-----------------|---------------------------------|
E-|-----------------|---------------------------------|
	   ^Tap     ^Tap              ^Tap

e-|-------------------|---------2--0-------------|
B-|--2------3-----3-2-|------2--2--2--2---0---2--|
G-|--2-2----2-2-----2-|--2-2----2--2----2---2-2--|
D-|------2------2-----|--------------------------|
A-|--0------0-------0-|---------0----------------|
E-|-------------------|--------------------------|
                     ^Tap        ^Tap          ^Tap

e-|------------|-----------------------|
B-|------0-----|-----------------------|
G-|--2-2----1--|-----------------------|
D-|---------2--|------------24-0---2--|
A-|---------2--|--------0-2-------2----|
E-|------------|--0-2-4----------------|


e-|------0--5--------------|--5--------------|
B-|--0-0----7--7----7-8-7--|--7--7----7-8-7--|
G-|---------7----7--7-7-7--|--7----7--7-7-7--|
D-|------------------------|-----------------|
A-|---------5--------------|--5--------------|
E-|------------------------|-----------------|


e-|--------0------------|------0--5-----5--7-----7--9--|
B-|--2-------2---2---2--|--2-2----5-5---5--7-7---7--9--|
G-|--2-2-------2---2-2--|---------6---6-6--7---7-7--9--|
D-|------2--------------|------------------------------|
A-|--0---------------0--|------------------------------|
E-|---------------------|---------5--------7--------9--|
			    ^Tap 

e-|----------------|--0h2-0---1------------|
B-|--5---7---8---7-|--3---3-3-3--3-3-35-|
G-|----5---7---8-7-|--2---2---2------------|
D-|--0-------------|-----------------------|
A-|----------------|-----------------------|
E-|----------------|-----------------------|


e-|-------------------------------------|
B-|--2------2------3--0-------3-2-2-0-1-|
G-|--2--2-----2----2--1--1----1-1-1-1-2-|
D-|-------2-----2----------2----------2-|
A-|--0-------------0--2-------2-2-2-2-0-|
E-|-------------------------------------|


e-|-------------------------5---*12-----*19-|
B-|----0-1----------3------5-------*7---*19-|
G-|--2-----2--------1-----5----------*5-*19-|
D-|----------2-1-0--0----0------------------|
A-|-----------------2---0-------------------|
E-|-----------------------------------------|

La Canción se repite dos veces y en la segunda vez se toca la última estrofa.

* = Armónicos: el dedo de la manos izquierda se colocan ligeramente sobre la 
cuerda en el acorde y se toca con las uñas de los dedos de la mano derecha.

Fuente original ATAME [www.atame.org]
Colaborador original: Christopher Ureña [christopher@reygil.com]

Fuente: tusacordes.com