a b c d e f g h i j k l m n o p q r s t u v w x y z 0-9

Barney

Canciones Populares

			
E]----0-0-2-4-0-4-2-[
B]-0----------------[
G]------------------[
A]------------------[
D]------------------[
E]------------------[

e]----0-0-2-4--0----[
B]-0--------------4-[
G]------------------[
A]------------------[
D]------------------[
E]------------------[

E]----0-0-2-4-5-4-2-0---------0-0-[
B]-0------------------4-0-2-4-5-5-[
G]--------------------------------[
A]--------------------------------[
D]--------------------------------[
E]--------------------------------[

Y la parte que nunca antes se había tabulado:

va mas rápido

E]-------------0------------------[
B]-2-4-2---2-4---2---2------------[
G]-------4---------4---4-2-1-4----[
A]--------------------------------[
D]--------------------------------[
E]--------------------------------[


E]-------------0------------------[
B]-2-4-2---2-4---2---5-4--7--5-5--[
G]-------4---------4--------------[
A]--------------------------------[
D]--------------------------------[
E]--------------------------------[

esto es al final cuandole brilla
 el ojo a barney en modo peluche

E]--0-5-5-7-9-10-9-7-5-4-0--2-4-5-5-[
B]-----------------------|----------[
G]-----------------------|----------[
A]-----------------------|----------[
D]-----------------------|----------[
E]-----------------------|----------[
                         |?»ó 4

Fuente: Tusacordes