a b c d e f g h i j k l m n o p q r s t u v w x y z 0-9

Arroz Con Leche

Canciones Populares

			
Arroz con leche:
e||---------0-------|----------0----|-0--1--0--------------| 
B||------1-----1--1-|----1--1-----3-|----------3--1--0--0--| 
G||?--0-------------|-0-------------|----------------------| 
D||?----------------|---------------|----------------------| 
A||-----------------|---------------|----------------------| 
E||-----------------|---------------|----------------------| 

e||---------------|--------0-----|--------0-----| 
B||---------0--1--|-----1-----1--|-----1-----3--| 
G||---0--2--------|--0-----------|--0-----------| 
D||---------------|--------------|--------------| 
A||---------------|--------------|--------------| 
E||---------------|--------------|--------------| 

e||---0--1--0--------------|-------------------|| 
B||------------3--1--0--0--|--------0--1-------|| 
G||------------------------|--0--2------------?|| 
D||------------------------|------------------?|| 
A||------------------------|-------------------|| 
E||------------------------|-------------------||

Fuente: tusacordes.com